  0
SECTION
  2
HEADER
  9
$ACADVER
  1
AC1009
  9
$INSBASE
 10
0.0
 20
0.0
 30
0.0
  9
$EXTMIN
 10
5044.475098
 20
346.051025
 30
0.0
  9
$EXTMAX
 10
5416.475098
 20
396.051025
 30
0.0
  9
$LIMMIN
 10
0.0
 20
0.0
  9
$LIMMAX
 10
0.0
 20
0.0
  9
$ORTHOMODE
 70
     0
  9
$REGENMODE
 70
     1
  9
$FILLMODE
 70
     1
  9
$QTEXTMODE
 70
     0
  9
$MIRRTEXT
 70
     1
  9
$DRAGMODE
 70
     2
  9
$LTSCALE
 40
1.0
  9
$OSMODE
 70
     0
  9
$ATTMODE
 70
     1
  9
$TEXTSIZE
 40
0.2
  9
$TRACEWID
 40
0.05
  9
$TEXTSTYLE
  7
STANDARD
  9
$CLAYER
  8
0
  9
$CELTYPE
  6
CONTINUOUS
  9
$CECOLOR
 62
   256
  9
$DIMSCALE
 40
1.0
  9
$DIMASZ
 40
0.18
  9
$DIMEXO
 40
0.0625
  9
$DIMDLI
 40
0.38
  9
$DIMRND
 40
0.0
  9
$DIMDLE
 40
0.0
  9
$DIMEXE
 40
0.18
  9
$DIMTP
 40
0.0
  9
$DIMTM
 40
0.0
  9
$DIMTXT
 40
0.18
  9
$DIMCEN
 40
0.09
  9
$DIMTSZ
 40
0.0
  9
$DIMTOL
 70
     0
  9
$DIMLIM
 70
     0
  9
$DIMTIH
 70
     1
  9
$DIMTOH
 70
     1
  9
$DIMSE1
 70
     0
  9
$DIMSE2
 70
     0
  9
$DIMTAD
 70
     0
  9
$DIMZIN
 70
     0
  9
$DIMBLK
  1

  9
$DIMASO
 70
     1
  9
$DIMSHO
 70
     1
  9
$DIMPOST
  1

  9
$DIMAPOST
  1

  9
$DIMALT
 70
     0
  9
$DIMALTD
 70
     2
  9
$DIMALTF
 40
25.4
  9
$DIMLFAC
 40
1.0
  9
$DIMTOFL
 70
     0
  9
$DIMTVP
 40
0.0
  9
$DIMTIX
 70
     0
  9
$DIMSOXD
 70
     0
  9
$DIMSAH
 70
     0
  9
$DIMBLK1
  1

  9
$DIMBLK2
  1

  9
$DIMSTYLE
  2
STANDARD
  9
$DIMCLRD
 70
     0
  9
$DIMCLRE
 70
     0
  9
$DIMCLRT
 70
     0
  9
$DIMTFAC
 40
1.0
  9
$DIMGAP
 40
0.09
  9
$LUNITS
 70
     2
  9
$LUPREC
 70
     4
  9
$AXISMODE
 70
     0
  9
$AXISUNIT
 10
0.0
 20
0.0
  9
$SKETCHINC
 40
0.1
  9
$FILLETRAD
 40
0.0
  9
$AUNITS
 70
     0
  9
$AUPREC
 70
     0
  9
$MENU
  1
acad
  9
$ELEVATION
 40
0.0
  9
$PELEVATION
 40
0.0
  9
$THICKNESS
 40
0.0
  9
$LIMCHECK
 70
     0
  9
$BLIPMODE
 70
     1
  9
$CHAMFERA
 40
0.0
  9
$CHAMFERB
 40
0.0
  9
$SKPOLY
 70
     0
  9
$TDCREATE
 40
0.000000000
  9
$TDUPDATE
 40
0.000000000
  9
$TDINDWG
 40
0.0000000000
  9
$TDUSRTIMER
 40
0.0000000000
  9
$USRTIMER
 70
     1
  9
$ANGBASE
 50
0.0
  9
$ANGDIR
 70
     0
  9
$PDMODE
 70
     0
  9
$PDSIZE
 40
0.0
  9
$PLINEWID
 40
0.0
  9
$COORDS
 70
     0
  9
$SPLFRAME
 70
     0
  9
$SPLINETYPE
 70
     6
  9
$SPLINESEGS
 70
     8
  9
$ATTDIA
 70
     0
  9
$ATTREQ
 70
     1
  9
$HANDLING
 70
     1
  9
$HANDSEED
  5
3B
  9
$SURFTAB1
 70
     6
  9
$SURFTAB2
 70
     6
  9
$SURFTYPE
 70
     6
  9
$SURFU
 70
     6
  9
$SURFV
 70
     6
  9
$UCSNAME
  2

  9
$UCSORG
 10
0.0
 20
0.0
 30
0.0
  9
$UCSXDIR
 10
1.0
 20
0.0
 30
0.0
  9
$UCSYDIR
 10
0.0
 20
1.0
 30
0.0
  9
$PUCSNAME
  2

  9
$PUCSORG
 10
0.0
 20
0.0
 30
0.0
  9
$PUCSXDIR
 10
1.0
 20
0.0
 30
0.0
  9
$PUCSYDIR
 10
0.0
 20
1.0
 30
0.0
  9
$USERI1
 70
     0
  9
$USERI2
 70
     0
  9
$USERI3
 70
     0
  9
$USERI4
 70
     0
  9
$USERI5
 70
     0
  9
$USERR1
 40
0.0
  9
$USERR2
 40
0.0
  9
$USERR3
 40
0.0
  9
$USERR4
 40
0.0
  9
$USERR5
 40
0.0
  9
$WORLDVIEW
 70
     1
  9
$SHADEDGE
 70
     3
  9
$SHADEDIF
 70
    70
  9
$TILEMODE
 70
     1
  9
$MAXACTVP
 70
    16
  9
$PINSBASE
 10
0.0
 20
0.0
 30
0.0
  9
$PLIMCHECK
 70
     0
  9
$PEXTMIN
 10
1.000000E+20
 20
1.000000E+20
 30
1.000000E+20
  9
$PEXTMAX
 10
-1.000000E+20
 20
-1.000000E+20
 30
-1.000000E+20
  9
$PLIMMIN
 10
0.0
 20
0.0
  9
$PLIMMAX
 10
12.0
 20
9.0
  9
$UNITMODE
 70
     0
  9
$VISRETAIN
 70
     0
  9
$PLINEGEN
 70
     1
  9
$PSLTSCALE
 70
     0
  9
$TREEDEPTH
 70
  3020
  9
$DWGCODEPAGE
  3
dos850
  0
ENDSEC
  0
SECTION
  2
TABLES
  0
TABLE
  2
VPORT
 70
     1
  0
VPORT
  2
*ACTIVE
 70
     0
 10
0.0
 20
0.0
 11
1.0
 21
1.0
 12
6.591288
 22
4.579184
 13
0.0
 23
0.0
 14
1.0
 24
1.0
 15
0.0
 25
0.0
 16
0.0
 26
0.0
 36
1.0
 17
0.0
 27
0.0
 37
0.0
 40
9.158369
 41
0.688564
 42
50.0
 43
0.0
 44
0.0
 50
0.0
 51
0.0
 71
     0
 72
   100
 73
     1
 74
     1
 75
     0
 76
     0
 77
     0
 78
     0
  0
ENDTAB
  0
TABLE
  2
LTYPE
 70
     1
  0
LTYPE
  2
CONTINUOUS
 70
    64
  3
Solid line
 72
    65
 73
     0
 40
0.0
  0
ENDTAB
  0
TABLE
  2
LAYER
 70
     3
  0
LAYER
  2
0
 70
     0
 62
     7
  6
CONTINUOUS
  0
LAYER
  2
MERGE
 70
     0
 62
     7
  6
CONTINUOUS
  0
LAYER
  2
STANDARD
 70
     0
 62
     7
  6
CONTINUOUS
  0
ENDTAB
  0
TABLE
  2
STYLE
 70
     2
  0
STYLE
  2
STANDARD
 70
     0
 40
0.0
 41
1.0
 50
0.0
 71
     0
 42
0.0
  3
txt
  4

  0
STYLE
  2
STYLE1
 70
     0
 40
0.0
 41
1.0
 50
0.0
 71
     0
 42
0.0
  3
Arial.ttf
  4

  0
ENDTAB
  0
TABLE
  2
VIEW
 70
     0
  0
ENDTAB
  0
TABLE
  2
UCS
 70
     0
  0
ENDTAB
  0
TABLE
  2
APPID
 70
     1
  0
APPID
  2
ACAD
 70
     0
  0
ENDTAB
  0
TABLE
  2
DIMSTYLE
 70
     1
  0
DIMSTYLE
  2
STANDARD
 70
     0
  3

  4

  5

  6

  7

 40
1.0
 41
0.18
 42
0.0625
 43
0.38
 44
0.18
 45
0.0
 46
0.0
 47
0.0
 48
0.0
 71
     0
 72
     0
 73
     1
 74
     1
 75
     0
 76
     0
 77
     0
 78
     0
140
0.18
141
0.09
142
0.0
143
25.4
144
1.0
145
0.0
146
1.0
147
0.09
170
     0
171
     2
172
     0
173
     0
174
     0
175
     0
176
     0
177
     0
178
     0
  0
ENDTAB
  0
ENDSEC
  0
SECTION
  2
BLOCKS
  0
ENDSEC
  0
SECTION
  2
ENTITIES
  0
LINE
  8
STANDARD
 62
   251
  5
20
 10
5057.475098
 20
396.051025
 30
0.0
 11
5044.475098
 21
383.051025
 31
0.0
  0
LINE
  8
STANDARD
 62
   251
  5
21
 10
5044.475098
 20
359.051025
 30
0.0
 11
5044.475098
 21
383.051025
 31
0.0
  0
LINE
  8
STANDARD
 62
   251
  5
22
 10
5057.475098
 20
346.051025
 30
0.0
 11
5044.475098
 21
359.051025
 31
0.0
  0
LINE
  8
STANDARD
 62
   251
  5
23
 10
5057.475098
 20
346.051025
 30
0.0
 11
5403.475098
 21
346.051025
 31
0.0
  0
LINE
  8
STANDARD
 62
   251
  5
24
 10
5403.475098
 20
346.051025
 30
0.0
 11
5416.475098
 21
359.051025
 31
0.0
  0
LINE
  8
STANDARD
 62
   251
  5
25
 10
5416.475098
 20
359.051025
 30
0.0
 11
5416.475098
 21
383.051025
 31
0.0
  0
LINE
  8
STANDARD
 62
   251
  5
26
 10
5057.475098
 20
396.051025
 30
0.0
 11
5403.475098
 21
396.051025
 31
0.0
  0
LINE
  8
STANDARD
 62
   251
  5
27
 10
5416.475098
 20
383.051025
 30
0.0
 11
5403.475098
 21
396.051025
 31
0.0
  0
CIRCLE
  8
STANDARD
 62
   251
  5
28
 10
5076.475098
 20
371.051025
 30
0.0
 40
13.5
  0
CIRCLE
  8
STANDARD
 62
   251
  5
29
 10
5138.475098
 20
371.051025
 30
0.0
 40
3.0
  0
CIRCLE
  8
STANDARD
 62
   251
  5
2A
 10
5401.572266
 20
376.132324
 30
0.0
 40
3.204064
  0
LINE
  8
STANDARD
 62
   251
  5
2B
 10
5102.475098
 20
368.051025
 30
0.0
 11
5109.475098
 21
368.051025
 31
0.0
  0
LINE
  8
STANDARD
 62
   251
  5
2C
 10
5102.475098
 20
348.051025
 30
0.0
 11
5109.475098
 21
348.051025
 31
0.0
  0
ARC
  8
STANDARD
 62
   251
  5
2D
 10
5109.475098
 20
358.051025
 30
0.0
 40
10.0
 50
270.000001
 51
450.000019
  0
ARC
  8
STANDARD
 62
   251
  5
2E
 10
5102.475098
 20
358.051025
 30
0.0
 40
10.0
 50
90.000003
 51
269.999994
  0
LINE
  8
STANDARD
 62
   251
  5
2F
 10
5174.475098
 20
368.051025
 30
0.0
 11
5167.475098
 21
368.051025
 31
0.0
  0
LINE
  8
STANDARD
 62
   251
  5
30
 10
5174.475098
 20
348.051025
 30
0.0
 11
5167.475098
 21
348.051025
 31
0.0
  0
ARC
  8
STANDARD
 62
   251
  5
31
 10
5167.475098
 20
358.051025
 30
0.0
 40
10.0
 50
89.999989
 51
270.000008
  0
ARC
  8
STANDARD
 62
   251
  5
32
 10
5174.475098
 20
358.051025
 30
0.0
 40
10.0
 50
270.000001
 51
449.999992
  0
POLYLINE
  8
STANDARD
 62
   251
  5
33
 66
     1
 10
0.0
 20
0.0
 30
0.0
 70
     1
  0
VERTEX
  8
STANDARD
 62
   251
  5
34
 10
5403.825195
 20
368.401031
 30
0.0
  0
VERTEX
  8
STANDARD
 62
   251
  5
35
 10
5403.825195
 20
373.701019
 30
0.0
  0
VERTEX
  8
STANDARD
 62
   251
  5
36
 10
5409.125
 20
373.701019
 30
0.0
  0
VERTEX
  8
STANDARD
 62
   251
  5
37
 10
5409.125
 20
368.401031
 30
0.0
  0
SEQEND
  8
0
  5
38
  0
ENDSEC
  0
EOF
